Guns.ru Talks
Пневматическое оружие
зависимость давления СО2 от температуры

тема закрыта

вход | зарегистрироваться | поиск | реклама | картинки | календарь | поиск оружия, магазинов | фотоконкурсы | Аукцион
Автор
Тема: зависимость давления СО2 от температуры
strateg
27-11-2006 13:04 strateg
Не смог найти. Попадалась в свое время где-то табличка с зависимостью давлений углекислоты от температуры. Интересует особо при минусовых.
MoGreG
27-11-2006 15:28 MoGreG
Точно я тебе не скажу, но при минусовых температурах ни хера он не стреляет, а тока плюется, сука. Посмотри журнал 'Техника машиностроению' ? 2 за 2005 г. Есть там статейка вроде. Вот тебе таблица:
Таблица зависимости давления СО2 от температуры

Т, oС----------P, атм
-24----------17,2
-22----------18,3
-20----------20,7
-18----------19,45
-16----------22
-14----------23,3
-12----------24,7
-10----------26,2
-8----------27,7
-6----------29,3
-4----------30,9
-2----------32,6
0----------34,4
2----------36,3
4----------38,2
6----------40,2
8----------42,3
10----------44,4
12----------46,7
14----------49
16----------51,4
18----------53,9
20----------56,5
22----------59,2
24----------62,30 ит.д.

MoGreG
27-11-2006 15:29 MoGreG
Блин, че-то я нахомутал такого .
strateg
27-11-2006 17:58 strateg
Спасибо, то что надо. Мне давление после редуктора 11-12 атм надо, даже при минус 24 за глаза хватит. Так что струлять будет (аэрсофт, газ. болтовка)
Кайнын
27-11-2006 22:44 Кайнын
смотри.

для перевода psi в атмосферы надо их поделить на 14.5 (примерно)
click for enlarge 906 X 637  63.3 Kb picture
click for enlarge 935 X 573  63.1 Kb picture

strateg
29-11-2006 13:30 strateg
Спасибо
Guns.ru Talks
Пневматическое оружие
зависимость давления СО2 от температуры